  0
SECTION
  2
HEADER
  9
$ACADVER
  1
AC1015
  9
$ACADMAINTVER
 70
     6
  9
$DWGCODEPAGE
  3
ANSI_1254
  9
$INSBASE
 10
0.0
 20
0.0
 30
0.0
  9
$EXTMIN
 10
0.0
 20
0.0
 30
0.0
  9
$EXTMAX
 10
279.4
 20
215.9
 30
0.0
  9
$LIMMIN
 10
0.0
 20
0.0
  9
$LIMMAX
 10
279.4
 20
215.9
  9
$ORTHOMODE
 70
     0
  9
$REGENMODE
 70
     1
  9
$FILLMODE
 70
     1
  9
$QTEXTMODE
 70
     0
  9
$MIRRTEXT
 70
     1
  9
$LTSCALE
 40
1.0
  9
$ATTMODE
 70
     1
  9
$TEXTSIZE
 40
3.5
  9
$TRACEWID
 40
1.0
  9
$TEXTSTYLE
  7
Standard
  9
$CLAYER
  8
0
  9
$CELTYPE
  6
ByLayer
  9
$CECOLOR
 62
   256
  9
$CELTSCALE
 40
1.0
  9
$DISPSILH
 70
     0
  9
$DIMSCALE
 40
1.0
  9
$DIMASZ
 40
3.5
  9
$DIMEXO
 40
1.0
  9
$DIMDLI
 40
3.75
  9
$DIMRND
 40
0.0
  9
$DIMDLE
 40
0.0
  9
$DIMEXE
 40
1.0
  9
$DIMTP
 40
0.0
  9
$DIMTM
 40
0.0
  9
$DIMTXT
 40
3.5
  9
$DIMCEN
 40
2.5
  9
$DIMTSZ
 40
0.0
  9
$DIMTOL
 70
     0
  9
$DIMLIM
 70
     0
  9
$DIMTIH
 70
     1
  9
$DIMTOH
 70
     1
  9
$DIMSE1
 70
     0
  9
$DIMSE2
 70
     0
  9
$DIMTAD
 70
     1
  9
$DIMZIN
 70
     0
  9
$DIMBLK
  1

  9
$DIMASO
 70
     1
  9
$DIMSHO
 70
     1
  9
$DIMPOST
  1

  9
$DIMAPOST
  1

  9
$DIMALT
 70
     0
  9
$DIMALTD
 70
     3
  9
$DIMALTF
 40
0.0393700787
  9
$DIMLFAC
 40
1.0
  9
$DIMTOFL
 70
     1
  9
$DIMTVP
 40
0.0
  9
$DIMTIX
 70
     0
  9
$DIMSOXD
 70
     0
  9
$DIMSAH
 70
     0
  9
$DIMBLK1
  1

  9
$DIMBLK2
  1

  9
$DIMSTYLE
  2
ISO-25
  9
$DIMCLRD
 70
     0
  9
$DIMCLRE
 70
     0
  9
$DIMCLRT
 70
     0
  9
$DIMTFAC
 40
1.0
  9
$DIMGAP
 40
1.524
  9
$DIMJUST
 70
     0
  9
$DIMSD1
 70
     0
  9
$DIMSD2
 70
     0
  9
$DIMTOLJ
 70
     0
  9
$DIMTZIN
 70
     0
  9
$DIMALTZ
 70
     0
  9
$DIMALTTZ
 70
     0
  9
$DIMUPT
 70
     0
  9
$DIMDEC
 70
     2
  9
$DIMTDEC
 70
     2
  9
$DIMALTU
 70
     2
  9
$DIMALTTD
 70
     3
  9
$DIMTXSTY
  7
Standard
  9
$DIMAUNIT
 70
     0
  9
$DIMADEC
 70
     2
  9
$DIMALTRND
 40
0.0
  9
$DIMAZIN
 70
     0
  9
$DIMDSEP
 70
    44
  9
$DIMATFIT
 70
     3
  9
$DIMFRAC
 70
     0
  9
$DIMLDRBLK
  1

  9
$DIMLUNIT
 70
     2
  9
$DIMLWD
 70
    -2
  9
$DIMLWE
 70
    -2
  9
$DIMTMOVE
 70
     0
  9
$LUNITS
 70
     2
  9
$LUPREC
 70
     2
  9
$SKETCHINC
 40
1.0
  9
$FILLETRAD
 40
10.0
  9
$AUNITS
 70
     0
  9
$AUPREC
 70
     2
  9
$MENU
  1
.
  9
$ELEVATION
 40
0.0
  9
$PELEVATION
 40
0.0
  9
$THICKNESS
 40
0.0
  9
$LIMCHECK
 70
     0
  9
$CHAMFERA
 40
0.0
  9
$CHAMFERB
 40
0.0
  9
$CHAMFERC
 40
0.0
  9
$CHAMFERD
 40
0.0
  9
$SKPOLY
 70
     0
  9
$TDCREATE
 40
2458985.668790856
  9
$TDUCREATE
 40
2458985.543790856
  9
$TDUPDATE
 40
2458985.668791134
  9
$TDUUPDATE
 40
2458985.543791134
  9
$TDINDWG
 40
0.0000000116
  9
$TDUSRTIMER
 40
0.0000000116
  9
$USRTIMER
 70
     1
  9
$ANGBASE
 50
0.0
  9
$ANGDIR
 70
     0
  9
$PDMODE
 70
     0
  9
$PDSIZE
 40
-1.0
  9
$PLINEWID
 40
0.0
  9
$SPLFRAME
 70
     0
  9
$SPLINETYPE
 70
     6
  9
$SPLINESEGS
 70
     8
  9
$HANDSEED
  5
D3
  9
$SURFTAB1
 70
     6
  9
$SURFTAB2
 70
     6
  9
$SURFTYPE
 70
     6
  9
$SURFU
 70
     6
  9
$SURFV
 70
     6
  9
$UCSBASE
  2

  9
$UCSNAME
  2

  9
$UCSORG
 10
0.0
 20
0.0
 30
0.0
  9
$UCSXDIR
 10
1.0
 20
0.0
 30
0.0
  9
$UCSYDIR
 10
0.0
 20
1.0
 30
0.0
  9
$UCSORTHOREF
  2

  9
$UCSORTHOVIEW
 70
     0
  9
$UCSORGTOP
 10
0.0
 20
0.0
 30
0.0
  9
$UCSORGBOTTOM
 10
0.0
 20
0.0
 30
0.0
  9
$UCSORGLEFT
 10
0.0
 20
0.0
 30
0.0
  9
$UCSORGRIGHT
 10
0.0
 20
0.0
 30
0.0
  9
$UCSORGFRONT
 10
0.0
 20
0.0
 30
0.0
  9
$UCSORGBACK
 10
0.0
 20
0.0
 30
0.0
  9
$PUCSBASE
  2

  9
$PUCSNAME
  2

  9
$PUCSORG
 10
0.0
 20
0.0
 30
0.0
  9
$PUCSXDIR
 10
1.0
 20
0.0
 30
0.0
  9
$PUCSYDIR
 10
0.0
 20
1.0
 30
0.0
  9
$PUCSORTHOREF
  2

  9
$PUCSORTHOVIEW
 70
     0
  9
$PUCSORGTOP
 10
0.0
 20
0.0
 30
0.0
  9
$PUCSORGBOTTOM
 10
0.0
 20
0.0
 30
0.0
  9
$PUCSORGLEFT
 10
0.0
 20
0.0
 30
0.0
  9
$PUCSORGRIGHT
 10
0.0
 20
0.0
 30
0.0
  9
$PUCSORGFRONT
 10
0.0
 20
0.0
 30
0.0
  9
$PUCSORGBACK
 10
0.0
 20
0.0
 30
0.0
  9
$USERI1
 70
     0
  9
$USERI2
 70
     0
  9
$USERI3
 70
     0
  9
$USERI4
 70
     0
  9
$USERI5
 70
     0
  9
$USERR1
 40
0.0
  9
$USERR2
 40
0.0
  9
$USERR3
 40
0.0
  9
$USERR4
 40
0.0
  9
$USERR5
 40
0.0
  9
$WORLDVIEW
 70
     1
  9
$SHADEDGE
 70
     3
  9
$SHADEDIF
 70
    70
  9
$TILEMODE
 70
     1
  9
$MAXACTVP
 70
    64
  9
$PINSBASE
 10
0.0
 20
0.0
 30
0.0
  9
$PLIMCHECK
 70
     0
  9
$PEXTMIN
 10
1.0000000000E+20
 20
1.0000000000E+20
 30
1.0000000000E+20
  9
$PEXTMAX
 10
-1.0000000000E+20
 20
-1.0000000000E+20
 30
-1.0000000000E+20
  9
$PLIMMIN
 10
0.0
 20
0.0
  9
$PLIMMAX
 10
420.0
 20
297.0
  9
$UNITMODE
 70
     0
  9
$VISRETAIN
 70
     1
  9
$PLINEGEN
 70
     0
  9
$PSLTSCALE
 70
     1
  9
$TREEDEPTH
 70
  3020
  9
$CMLSTYLE
  2
Standard
  9
$CMLJUST
 70
     0
  9
$CMLSCALE
 40
20.0
  9
$PROXYGRAPHICS
 70
     1
  9
$MEASUREMENT
 70
     1
  9
$CELWEIGHT
370
    -1
  9
$ENDCAPS
280
     0
  9
$JOINSTYLE
280
     0
  9
$LWDISPLAY
290
     1
  9
$INSUNITS
 70
     4
  9
$HYPERLINKBASE
  1

  9
$STYLESHEET
  1

  9
$XEDIT
290
     1
  9
$CEPSNTYPE
380
     0
  9
$PSTYLEMODE
290
     1
  9
$FINGERPRINTGUID
  2
{b1596eae-a80d-4c46-9b8d-f2dd9cd5a911}
  9
$VERSIONGUID
  2
{FAEB1C32-E019-11D5-929B-00C0DF256EC4}
  9
$EXTNAMES
290
     1
  9
$PSVPSCALE
 40
0.0
  9
$OLESTARTUP
290
     0
  0
ENDSEC
  0
SECTION
  2
CLASSES
  0
CLASS
  1
ACDBDICTIONARYWDFLT
  2
AcDbDictionaryWithDefault
  3
ObjectDBX Classes
 90
        0
280
     0
281
     0
  0
CLASS
  1
VISUALSTYLE
  2
AcDbVisualStyle
  3
ObjectDBX Classes
 90
     4095
280
     0
281
     0
  0
CLASS
  1
MATERIAL
  2
AcDbMaterial
  3
ObjectDBX Classes
 90
     1153
280
     0
281
     0
  0
CLASS
  1
SCALE
  2
AcDbScale
  3
ObjectDBX Classes
 90
     1153
280
     0
281
     0
  0
CLASS
  1
TABLESTYLE
  2
AcDbTableStyle
  3
ObjectDBX Classes
 90
     4095
280
     0
281
     0
  0
CLASS
  1
MLEADERSTYLE
  2
AcDbMLeaderStyle
  3
ACDB_MLEADERSTYLE_CLASS
 90
     4095
280
     0
281
     0
  0
CLASS
  1
SUN
  2
AcDbSun
  3
SCENEOE
 90
     1153
280
     0
281
     0
  0
CLASS
  1
ACDBPLACEHOLDER
  2
AcDbPlaceHolder
  3
ObjectDBX Classes
 90
        0
280
     0
281
     0
  0
CLASS
  1
LAYOUT
  2
AcDbLayout
  3
ObjectDBX Classes
 90
        0
280
     0
281
     0
  0
ENDSEC
  0
SECTION
  2
TABLES
  0
TABLE
  2
VPORT
  5
8
330
0
100
AcDbSymbolTable
 70
     1
  0
VPORT
  5
29
330
8
100
AcDbSymbolTableRecord
100
AcDbViewportTableRecord
  2
*Active
 70
     0
 10
0.0
 20
0.0
 11
1.0
 21
1.0
 12
139.7
 22
107.95
 13
0.0
 23
0.0
 14
10.0
 24
10.0
 15
10.0
 25
10.0
 16
0.0
 26
0.0
 36
1.0
 17
0.0
 27
0.0
 37
0.0
 40
215.9
 41
1.2941176471
 42
50.0
 43
0.0
 44
0.0
 50
0.0
 51
0.0
 71
     0
 72
  2000
 73
     1
 74
     3
 75
     0
 76
     0
 77
     0
 78
     0
281
     0
 65
     1
110
0.0
120
0.0
130
0.0
111
1.0
121
0.0
131
0.0
112
0.0
122
1.0
132
0.0
 79
     0
146
0.0
  0
ENDTAB
  0
TABLE
  2
LTYPE
  5
5
330
0
100
AcDbSymbolTable
 70
     6
  0
LTYPE
  5
14
330
5
100
AcDbSymbolTableRecord
100
AcDbLinetypeTableRecord
  2
ByBlock
 70
     0
  3

 72
    65
 73
     0
 40
0.0
  0
LTYPE
  5
15
330
5
100
AcDbSymbolTableRecord
100
AcDbLinetypeTableRecord
  2
ByLayer
 70
     0
  3

 72
    65
 73
     0
 40
0.0
  0
LTYPE
  5
16
330
5
100
AcDbSymbolTableRecord
100
AcDbLinetypeTableRecord
  2
Continuous
 70
     0
  3
Solid line
 72
    65
 73
     0
 40
0.0
  0
LTYPE
  5
6E
330
5
100
AcDbSymbolTableRecord
100
AcDbLinetypeTableRecord
  2
HIDDEN
 70
     0
  3
Hidden __ __ __ __ __ __ __ __ __ __ __ __ __ __
 72
    65
 73
     2
 40
1.905
 49
1.27
 74
     0
 49
-0.635
 74
     0
  0
LTYPE
  5
6F
330
5
100
AcDbSymbolTableRecord
100
AcDbLinetypeTableRecord
  2
PHANTOM
 70
     0
  3
Phantom ______  __  __  ______  __  __  ______
 72
    65
 73
     6
 40
12.7
 49
6.35
 74
     0
 49
-1.27
 74
     0
 49
1.27
 74
     0
 49
-1.27
 74
     0
 49
1.27
 74
     0
 49
-1.27
 74
     0
  0
LTYPE
  5
70
330
5
100
AcDbSymbolTableRecord
100
AcDbLinetypeTableRecord
  2
CENTER
 70
     0
  3
Center ____ _ ____ _ ____ _ ____ _ ____ _ ____
 72
    65
 73
     4
 40
10.16
 49
6.35
 74
     0
 49
-1.27
 74
     0
 49
1.27
 74
     0
 49
-1.27
 74
     0
  0
LTYPE
  5
71
330
5
100
AcDbSymbolTableRecord
100
AcDbLinetypeTableRecord
  2
CENTERX2
 70
     0
  3
Center (2x) ________  __  ________  __  _____
 72
    65
 73
     4
 40
20.32
 49
12.7
 74
     0
 49
-2.54
 74
     0
 49
2.54
 74
     0
 49
-2.54
 74
     0
  0
LTYPE
  5
72
330
5
100
AcDbSymbolTableRecord
100
AcDbLinetypeTableRecord
  2
DOT2
 70
     0
  3
Dot (.5x) ........................................
 72
    65
 73
     2
 40
0.635
 49
0.0
 74
     0
 49
-0.635
 74
     0
  0
ENDTAB
  0
TABLE
  2
LAYER
  5
2
330
0
100
AcDbSymbolTable
 70
    17
  0
LAYER
  5
10
330
2
100
AcDbSymbolTableRecord
100
AcDbLayerTableRecord
  2
0
 70
     0
 62
     7
  6
Continuous
370
    -3
390
F
  0
LAYER
  5
73
330
2
100
AcDbSymbolTableRecord
100
AcDbLayerTableRecord
  2
FORMAT
 70
     0
 62
     7
  6
Continuous
370
    -3
390
F
  0
LAYER
  5
74
330
2
100
AcDbSymbolTableRecord
100
AcDbLayerTableRecord
  2
YARDIMCI_GEOMETRI
 70
     0
 62
    -6
  6
Continuous
290
     0
370
    -3
390
F
  0
LAYER
  5
75
330
2
100
AcDbSymbolTableRecord
100
AcDbLayerTableRecord
  2
SAYFA_CERCEVESI
 70
     0
 62
     7
  6
Continuous
370
    25
390
F
  0
LAYER
  5
76
330
2
100
AcDbSymbolTableRecord
100
AcDbLayerTableRecord
  2
ANTET
 70
     0
 62
     7
  6
Continuous
370
    -3
390
F
  0
LAYER
  5
77
330
2
100
AcDbSymbolTableRecord
100
AcDbLayerTableRecord
  2
OLCU
 70
     0
 62
   150
  6
Continuous
370
    -3
390
F
  0
LAYER
  5
78
330
2
100
AcDbSymbolTableRecord
100
AcDbLayerTableRecord
  2
METIN
 70
     0
 62
    96
  6
Continuous
370
    -3
390
F
  0
LAYER
  5
79
330
2
100
AcDbSymbolTableRecord
100
AcDbLayerTableRecord
  2
BALON
 70
     0
 62
     5
  6
Continuous
370
    -3
390
F
  0
LAYER
  5
7A
330
2
100
AcDbSymbolTableRecord
100
AcDbLayerTableRecord
  2
VURGU
 70
     0
 62
     7
  6
Continuous
370
    -3
390
F
  0
LAYER
  5
7B
330
2
100
AcDbSymbolTableRecord
100
AcDbLayerTableRecord
  2
SILIK
 70
     0
 62
     7
  6
Continuous
370
    -3
390
F
  0
LAYER
  5
7C
330
2
100
AcDbSymbolTableRecord
100
AcDbLayerTableRecord
  2
MODEL
 70
     0
 62
     7
  6
Continuous
370
    -3
390
F
  0
LAYER
  5
7D
330
2
100
AcDbSymbolTableRecord
100
AcDbLayerTableRecord
  2
DETAYLANDıRMA
 70
     0
 62
   190
  6
Continuous
370
    -3
390
F
  0
LAYER
  5
7E
330
2
100
AcDbSymbolTableRecord
100
AcDbLayerTableRecord
  2
TOLERANS
 70
     0
 62
   230
  6
Continuous
370
    -3
390
F
  0
LAYER
  5
7F
330
2
100
AcDbSymbolTableRecord
100
AcDbLayerTableRecord
  2
MERKEZ_CIZGILERI
 70
     0
 62
    30
  6
Continuous
370
    -3
390
F
  0
LAYER
  5
80
330
2
100
AcDbSymbolTableRecord
100
AcDbLayerTableRecord
  2
KESIT-DETAY_CIZGILERI
 70
     0
 62
     7
  6
Continuous
370
    -3
390
F
  0
LAYER
  5
81
330
2
100
AcDbSymbolTableRecord
100
AcDbLayerTableRecord
  2
\U+041E\U+0421\U+0415\U+0412\U+042B\U+0415
 70
     0
 62
     7
  6
Continuous
370
    -3
390
F
  0
LAYER
  5
82
330
2
100
AcDbSymbolTableRecord
100
AcDbLayerTableRecord
  2
\U+0412\U+041E\U+0414\U+042F\U+041D\U+042B\U+0415_\U+0417\U+041D\U+0410\U+041A\U+0418
 70
     0
 62
    11
  6
Continuous
370
    -3
390
F
  0
ENDTAB
  0
TABLE
  2
STYLE
  5
3
330
0
100
AcDbSymbolTable
 70
     1
  0
STYLE
  5
11
330
3
100
AcDbSymbolTableRecord
100
AcDbTextStyleTableRecord
  2
Standard
 70
     0
 40
0.0
 41
1.0
 50
0.0
 71
     0
 42
3.5
  3
txt
  4

  0
ENDTAB
  0
TABLE
  2
VIEW
  5
6
330
0
100
AcDbSymbolTable
 70
     0
  0
ENDTAB
  0
TABLE
  2
UCS
  5
7
330
0
100
AcDbSymbolTable
 70
     0
  0
ENDTAB
  0
TABLE
  2
APPID
  5
9
330
0
100
AcDbSymbolTable
 70
     1
  0
APPID
  5
12
330
9
100
AcDbSymbolTableRecord
100
AcDbRegAppTableRecord
  2
ACAD
 70
     0
  0
ENDTAB
  0
TABLE
  2
DIMSTYLE
  5
A
330
0
100
AcDbSymbolTable
 70
     1
100
AcDbDimStyleTable
  0
DIMSTYLE
105
27
330
A
100
AcDbSymbolTableRecord
100
AcDbDimStyleTableRecord
  2
ISO-25
 70
     0
 41
2.5
 42
0.625
 43
3.75
 44
1.25
 73
     0
 74
     0
 77
     1
 78
     8
140
2.5
141
2.5
143
0.0393700787
147
0.625
171
     3
172
     1
178
     0
271
     2
272
     2
274
     3
278
    44
283
     0
284
     8
340
11
  0
ENDTAB
  0
TABLE
  2
BLOCK_RECORD
  5
1
330
0
100
AcDbSymbolTable
 70
     3
  0
BLOCK_RECORD
  5
1F
330
1
100
AcDbSymbolTableRecord
100
AcDbBlockTableRecord
  2
*Model_Space
340
22
  0
BLOCK_RECORD
  5
1B
330
1
100
AcDbSymbolTableRecord
100
AcDbBlockTableRecord
  2
*Paper_Space
340
1E
  0
BLOCK_RECORD
  5
23
330
1
100
AcDbSymbolTableRecord
100
AcDbBlockTableRecord
  2
*Paper_Space0
340
26
  0
BLOCK_RECORD
  5
94
330
1
100
AcDbSymbolTableRecord
100
AcDbBlockTableRecord
  2
SW_CENTERMARKSYMBOL_0
340
0
102
{BLKREFS
331
9F
102
}
  0
BLOCK_RECORD
  5
A5
330
1
100
AcDbSymbolTableRecord
100
AcDbBlockTableRecord
  2
SW_CENTERMARKSYMBOL_1
340
0
102
{BLKREFS
331
B0
102
}
  0
ENDTAB
  0
ENDSEC
  0
SECTION
  2
BLOCKS
  0
BLOCK
  5
20
330
1F
100
AcDbEntity
  8
0
100
AcDbBlockBegin
  2
*Model_Space
 70
     0
 10
0.0
 20
0.0
 30
0.0
  3
*Model_Space
  1

  0
ENDBLK
  5
21
330
1F
100
AcDbEntity
  8
0
100
AcDbBlockEnd
  0
BLOCK
  5
1C
330
1B
100
AcDbEntity
 67
     1
  8
0
100
AcDbBlockBegin
  2
*Paper_Space
 70
     0
 10
0.0
 20
0.0
 30
0.0
  3
*Paper_Space
  1

  0
ENDBLK
  5
1D
330
1B
100
AcDbEntity
 67
     1
  8
0
100
AcDbBlockEnd
  0
BLOCK
  5
24
330
23
100
AcDbEntity
  8
0
100
AcDbBlockBegin
  2
*Paper_Space0
 70
     0
 10
0.0
 20
0.0
 30
0.0
  3
*Paper_Space0
  1

  0
ENDBLK
  5
25
330
23
100
AcDbEntity
  8
0
100
AcDbBlockEnd
  0
BLOCK
  5
95
330
94
100
AcDbEntity
  8
0
100
AcDbBlockBegin
  2
SW_CENTERMARKSYMBOL_0
 70
     0
 10
0.0
 20
0.0
 30
0.0
  3
SW_CENTERMARKSYMBOL_0
  1

  0
LINE
  5
97
330
94
100
AcDbEntity
  8
FORMAT
 62
     0
100
AcDbLine
 10
0.0
 20
0.0
 30
0.0
 11
0.0
 21
2.5
 31
0.0
  0
LINE
  5
98
330
94
100
AcDbEntity
  8
FORMAT
 62
     0
100
AcDbLine
 10
0.0
 20
0.0
 30
0.0
 11
-2.5
 21
0.0
 31
0.0
  0
LINE
  5
99
330
94
100
AcDbEntity
  8
FORMAT
 62
     0
100
AcDbLine
 10
0.0
 20
0.0
 30
0.0
 11
0.0
 21
-2.5
 31
0.0
  0
LINE
  5
9A
330
94
100
AcDbEntity
  8
FORMAT
 62
     0
100
AcDbLine
 10
0.0
 20
0.0
 30
0.0
 11
2.5
 21
0.0
 31
0.0
  0
LINE
  5
9B
330
94
100
AcDbEntity
  8
FORMAT
 62
     0
100
AcDbLine
 10
0.0
 20
5.0
 30
0.0
 11
0.0
 21
47.5
 31
0.0
  0
LINE
  5
9C
330
94
100
AcDbEntity
  8
FORMAT
 62
     0
100
AcDbLine
 10
-5.0
 20
0.0
 30
0.0
 11
-47.5
 21
0.0
 31
0.0
  0
LINE
  5
9D
330
94
100
AcDbEntity
  8
FORMAT
 62
     0
100
AcDbLine
 10
0.0
 20
-5.0
 30
0.0
 11
0.0
 21
-47.5
 31
0.0
  0
LINE
  5
9E
330
94
100
AcDbEntity
  8
FORMAT
 62
     0
100
AcDbLine
 10
5.0
 20
0.0
 30
0.0
 11
47.5
 21
0.0
 31
0.0
  0
ENDBLK
  5
96
330
94
100
AcDbEntity
  8
0
100
AcDbBlockEnd
  0
BLOCK
  5
A6
330
A5
100
AcDbEntity
  8
0
100
AcDbBlockBegin
  2
SW_CENTERMARKSYMBOL_1
 70
     0
 10
0.0
 20
0.0
 30
0.0
  3
SW_CENTERMARKSYMBOL_1
  1

  0
LINE
  5
A8
330
A5
100
AcDbEntity
  8
FORMAT
 62
     0
100
AcDbLine
 10
0.0
 20
0.0
 30
0.0
 11
0.0
 21
2.5
 31
0.0
  0
LINE
  5
A9
330
A5
100
AcDbEntity
  8
FORMAT
 62
     0
100
AcDbLine
 10
0.0
 20
0.0
 30
0.0
 11
-2.5
 21
0.0
 31
0.0
  0
LINE
  5
AA
330
A5
100
AcDbEntity
  8
FORMAT
 62
     0
100
AcDbLine
 10
0.0
 20
0.0
 30
0.0
 11
0.0
 21
-2.5
 31
0.0
  0
LINE
  5
AB
330
A5
100
AcDbEntity
  8
FORMAT
 62
     0
100
AcDbLine
 10
0.0
 20
0.0
 30
0.0
 11
2.5
 21
0.0
 31
0.0
  0
LINE
  5
AC
330
A5
100
AcDbEntity
  8
FORMAT
 62
     0
100
AcDbLine
 10
0.0
 20
5.0
 30
0.0
 11
0.0
 21
47.5
 31
0.0
  0
LINE
  5
AD
330
A5
100
AcDbEntity
  8
FORMAT
 62
     0
100
AcDbLine
 10
-5.0
 20
0.0
 30
0.0
 11
-47.5
 21
0.0
 31
0.0
  0
LINE
  5
AE
330
A5
100
AcDbEntity
  8
FORMAT
 62
     0
100
AcDbLine
 10
0.0
 20
-5.0
 30
0.0
 11
0.0
 21
-47.5
 31
0.0
  0
LINE
  5
AF
330
A5
100
AcDbEntity
  8
FORMAT
 62
     0
100
AcDbLine
 10
5.0
 20
0.0
 30
0.0
 11
47.5
 21
0.0
 31
0.0
  0
ENDBLK
  5
A7
330
A5
100
AcDbEntity
  8
0
100
AcDbBlockEnd
  0
ENDSEC
  0
SECTION
  2
ENTITIES
  0
LINE
  5
83
330
1F
100
AcDbEntity
  8
0
  6
Continuous
 62
     7
370
    25
100
AcDbLine
 10
96.3355328888
 20
208.4323645335
 30
0.0
 11
96.3355328888
 21
57.8186318976
 31
0.0
  0
LINE
  5
84
330
1F
100
AcDbEntity
  8
0
  6
Continuous
 62
     7
370
    25
100
AcDbLine
 10
186.3355364651
 20
57.8186318976
 30
0.0
 11
186.3355364651
 21
208.4323645335
 31
0.0
  0
LINE
  5
85
330
1F
100
AcDbEntity
  8
0
  6
Continuous
 62
     7
370
    25
100
AcDbLine
 10
186.3355364651
 20
208.4323645335
 30
0.0
 11
186.3355364651
 21
270.8186388713
 31
0.0
  0
LINE
  5
86
330
1F
100
AcDbEntity
  8
0
  6
Continuous
 62
     7
370
    25
100
AcDbLine
 10
186.3355364651
 20
-50.1813709039
 30
0.0
 11
186.3355364651
 21
57.8186318976
 31
0.0
  0
LINE
  5
87
330
1F
100
AcDbEntity
  8
0
  6
Continuous
 62
     7
370
    25
100
AcDbLine
 10
96.3355328888
 20
57.8186318976
 30
0.0
 11
96.3355328888
 21
-50.1813709039
 31
0.0
  0
LINE
  5
88
330
1F
100
AcDbEntity
  8
0
  6
Continuous
 62
     7
370
    25
100
AcDbLine
 10
96.3355328888
 20
270.8186388713
 30
0.0
 11
96.3355328888
 21
208.4323645335
 31
0.0
  0
LWPOLYLINE
  5
89
330
1F
100
AcDbEntity
  8
0
  6
Continuous
 62
     7
370
    25
100
AcDbPolyline
 90
       76
 70
   128
 43
0.0
 10
141.335534677
 20
236.433792184
 10
138.0218919833
 20
236.3355935317
 10
134.7314923071
 20
236.0416830283
 10
131.487414986
 20
235.5540872317
 10
128.3124152572
 20
234.8762632114
 10
125.2287633718
 20
234.0129495364
 10
122.2580883653
 20
232.9702258807
 10
119.4212295116
 20
231.7553640109
 10
116.7380817235
 20
230.3769171935
 10
114.227468893
 20
228.844541381
 10
111.9070004672
 20
227.1689952117
 10
109.7929503769
 20
225.3620208007
 10
107.9001490027
 20
223.436284135
 10
106.2418732793
 20
221.4053154689
 10
104.8297535629
 20
219.2833603126
 10
103.6736954004
 20
217.0852900249
 10
102.7818087489
 20
214.8265124065
 10
102.160352096
 20
212.5229120952
 10
101.8136765808
 20
210.1906121474
 10
101.7442185432
 20
207.8459442359
 10
101.9524659962
 20
205.5054188472
 10
102.436958626
 20
203.1854272586
 10
103.1942952425
 20
200.9022415382
 10
104.2191673071
 20
198.671865533
 10
105.5043850095
 20
196.5099454623
 10
107.0409294218
 20
194.4316656095
 10
108.8180270047
 20
192.4515844089
 10
110.8232110739
 20
190.5835897428
 10
113.0424167961
 20
188.840794633
 10
115.4600780458
 20
187.235432933
 10
118.0592391641
 20
185.7787401181
 10
120.8216648549
 20
184.4809532863
 10
123.7279817463
 20
183.3511621457
 10
126.7578022555
 20
182.3973090154
 10
129.8898754642
 20
181.6260547143
 10
133.1022314728
 20
181.0428381663
 10
136.3723387942
 20
180.6517422896
 10
139.6772588371
 20
180.4555088979
 10
142.9938105168
 20
180.4555088979
 10
146.2987305597
 20
180.6517422896
 10
149.5688378811
 20
181.0428381663
 10
152.7811938897
 20
181.6260547143
 10
155.9132670984
 20
182.3973090154
 10
158.9430876077
 20
183.3511621457
 10
161.849404499
 20
184.4809532863
 10
164.6118301899
 20
185.7787401181
 10
167.2109913081
 20
187.235432933
 10
169.6286525578
 20
188.840794633
 10
171.84785828
 20
190.5835897428
 10
173.8530423493
 20
192.4515844089
 10
175.6301399321
 20
194.4316656095
 10
177.1666843445
 20
196.5099454623
 10
178.4519020469
 20
198.671865533
 10
179.4767741114
 20
200.9022415382
 10
180.234110728
 20
203.1854272586
 10
180.7186033577
 20
205.5054188472
 10
180.9268508107
 20
207.8459442359
 10
180.8573927731
 20
210.1906121474
 10
180.5107172579
 20
212.5229120952
 10
179.889260605
 20
214.8265124065
 10
178.9973739535
 20
217.0852900249
 10
177.8413157911
 20
219.2833603126
 10
176.4291960747
 20
221.4053154689
 10
174.7709203512
 20
223.436284135
 10
172.878118977
 20
225.3620208007
 10
170.7640688867
 20
227.1689952117
 10
168.4436004609
 20
228.844541381
 10
165.9329876304
 20
230.3769171935
 10
163.2498398424
 20
231.7553640109
 10
160.4129809887
 20
232.9702258807
 10
157.4423059822
 20
234.0129495364
 10
154.3586540968
 20
234.8762632114
 10
151.183654368
 20
235.5540872317
 10
147.9395770468
 20
236.0416830283
 10
144.6491773706
 20
236.3355935317
 10
141.335534677
 20
236.433792184
  0
LWPOLYLINE
  5
8A
330
1F
100
AcDbEntity
  8
0
  6
Continuous
 62
     7
370
    25
100
AcDbPolyline
 90
       81
 70
   128
 43
0.0
 10
141.335534677
 20
240.2521849376
 10
137.8048754298
 20
240.1540756923
 10
134.2959835195
 20
239.8604334098
 10
130.8304935694
 20
239.3729866248
 10
127.4297701195
 20
238.6948049766
 10
124.1147805006
 20
237.8300309878
 10
120.9059625865
 20
236.7840290767
 10
117.8230986
 20
235.5632067424
 10
114.8851986975
 20
234.1751337749
 10
112.1103733779
 20
232.6283336383
 10
109.5157291741
 20
230.9323728782
 10
107.1172680706
 20
229.0976823073
 10
104.9297701568
 20
227.1355868083
 10
102.966728434
 20
225.058186124
 10
101.2402426452
 20
222.8782654506
 10
99.7609559447
 20
220.6092954379
 10
98.5379915685
 20
218.2652235728
 10
97.5788895041
 20
215.8605635863
 10
96.889558062
 20
213.4100974303
 10
96.474255249
 20
210.9289348823
 10
96.3355328888
 20
208.4323645335
 10
96.474255249
 20
205.9358239871
 10
96.889558062
 20
203.454661439
 10
97.5788895041
 20
201.004195283
 10
98.5379915685
 20
198.5995054942
 10
99.7609559447
 20
196.2554634315
 10
101.2402426452
 20
193.9864785176
 10
102.966728434
 20
191.8065727454
 10
104.9297701568
 20
189.7291571599
 10
107.1172680706
 20
187.7670616609
 10
109.5157291741
 20
185.93237109
 10
112.1103733779
 20
184.2364103299
 10
114.8851986975
 20
182.6896101934
 10
117.8230986
 20
181.3015223247
 10
120.9059625865
 20
180.0807148915
 10
124.1147805006
 20
179.0347129804
 10
127.4297701195
 20
178.1699389916
 10
130.8304935694
 20
177.4917573434
 10
134.2959835195
 20
177.0043254596
 10
137.8048754298
 20
176.7106533748
 10
141.335534677
 20
176.6125739318
 10
144.8661939242
 20
176.7106533748
 10
148.3750858345
 20
177.0043254596
 10
151.8405757845
 20
177.4917573434
 10
155.2412992344
 20
178.1699389916
 10
158.5562888533
 20
179.0347129804
 10
161.7651067675
 20
180.0807148915
 10
164.847970754
 20
181.3015223247
 10
167.7858706564
 20
182.6896101934
 10
170.5606959761
 20
184.2364103299
 10
173.1553401799
 20
185.93237109
 10
175.5538012833
 20
187.7670616609
 10
177.7412991971
 20
189.7291571599
 10
179.7043409199
 20
191.8065727454
 10
181.4308267087
 20
193.9864785176
 10
182.9101134092
 20
196.2554634315
 10
184.1330777854
 20
198.5995054942
 10
185.0921798498
 20
201.004195283
 10
185.7815112919
 20
203.454661439
 10
186.196814105
 20
205.9358239871
 10
186.3355364651
 20
208.4323645335
 10
186.196814105
 20
210.9289348823
 10
185.7815112919
 20
213.4100974303
 10
185.0921798498
 20
215.8605635863
 10
184.1330777854
 20
218.2652235728
 10
182.9101134092
 20
220.6092954379
 10
181.4308267087
 20
222.8782654506
 10
179.7043409199
 20
225.058186124
 10
177.7412991971
 20
227.1355868083
 10
175.5538012833
 20
229.0976823073
 10
173.1553401799
 20
230.9323728782
 10
170.5606959761
 20
232.6283336383
 10
167.7858706564
 20
234.1751337749
 10
164.847970754
 20
235.5632067424
 10
161.7651067675
 20
236.7840290767
 10
158.5562888533
 20
237.8300309878
 10
155.2412992344
 20
238.6948049766
 10
151.8405757845
 20
239.3729866248
 10
148.3750858345
 20
239.8604334098
 10
144.8661939242
 20
240.1540756923
 10
141.335534677
 20
240.2521849376
  0
ELLIPSE
  5
8B
330
1F
100
AcDbEntity
  8
0
  6
Continuous
 62
     7
370
    25
100
AcDbEllipse
 10
141.335534677
 20
57.8186290961
 30
0.0
 11
45.0
 21
0.0
 31
0.0
210
0.0
220
0.0
230
1.0
 40
0.4142135624
 41
3.141592653589792
 42
6.283185307179586
  0
LINE
  5
8C
330
1F
100
AcDbEntity
  8
0
  6
Continuous
 62
     7
370
    25
100
AcDbLine
 10
96.3355328888
 20
-50.1813709039
 30
0.0
 11
186.3355364651
 21
-50.1813709039
 31
0.0
  0
LINE
  5
8D
330
1F
100
AcDbEntity
  8
0
  6
Continuous
 62
     7
370
    25
100
AcDbLine
 10
96.3355328888
 20
270.8186388713
 30
0.0
 11
186.3355364651
 21
270.8186388713
 31
0.0
  0
LINE
  5
8E
330
1F
100
AcDbEntity
  8
0
  6
Continuous
 62
     7
370
    25
100
AcDbLine
 10
186.3355364651
 20
407.1504608584
 30
0.0
 11
186.3355364651
 21
557.764200945
 31
0.0
  0
LINE
  5
8F
330
1F
100
AcDbEntity
  8
0
  6
Continuous
 62
     7
370
    25
100
AcDbLine
 10
96.3355328888
 20
557.764200945
 30
0.0
 11
96.3355328888
 21
407.1504608584
 31
0.0
  0
CIRCLE
  5
90
330
1F
100
AcDbEntity
  8
0
  6
Continuous
 62
     7
370
    25
100
AcDbCircle
 10
141.335534677
 20
557.764200945
 30
0.0
 40
39.59999999999999
  0
CIRCLE
  5
91
330
1F
100
AcDbEntity
  8
0
  6
Continuous
 62
     7
370
    25
100
AcDbCircle
 10
141.335534677
 20
557.764200945
 30
0.0
 40
45.0
  0
LWPOLYLINE
  5
92
330
1F
100
AcDbEntity
  8
0
  6
Continuous
 62
     7
370
    25
100
AcDbPolyline
 90
       81
 70
   128
 43
0.0
 10
141.335534677
 20
438.9702589107
 10
137.8048754298
 20
438.8721720172
 10
134.2959835195
 20
438.5785073829
 10
130.8304935694
 20
438.0910754991
 10
127.4297701195
 20
437.4128864003
 10
124.1147805006
 20
436.5481198621
 10
120.9059625865
 20
435.5021105004
 10
117.8230986
 20
434.2813030673
 10
114.8851986975
 20
432.8932226492
 10
112.1103733779
 20
431.3464299632
 10
109.5157291741
 20
429.6504543019
 10
107.1172680706
 20
427.8157637311
 10
104.9297701568
 20
425.853668232
 10
102.966728434
 20
423.7762526465
 10
101.2402426452
 20
421.5963468743
 10
99.7609559447
 20
419.3273619605
 10
98.5379915685
 20
416.9833198977
 10
97.5788895041
 20
414.5786450101
 10
96.889558062
 20
412.1281639529
 10
96.474255249
 20
409.647016306
 10
96.3355328888
 20
407.1504608584
 10
96.474255249
 20
404.6539054108
 10
96.889558062
 20
402.1727428628
 10
97.5788895041
 20
399.7222767068
 10
98.5379915685
 20
397.3176018191
 10
99.7609559447
 20
394.9735448552
 10
101.2402426452
 20
392.7045599414
 10
102.966728434
 20
390.5246541691
 10
104.9297701568
 20
388.4472385836
 10
107.1172680706
 20
386.4851430846
 10
109.5157291741
 20
384.6504525138
 10
112.1103733779
 20
382.9544917536
 10
114.8851986975
 20
381.4076916171
 10
117.8230986
 20
380.0196186495
 10
120.9059625865
 20
378.7987963153
 10
124.1147805006
 20
377.7527944041
 10
127.4297701195
 20
376.8880204154
 10
130.8304935694
 20
376.2098387671
 10
134.2959835195
 20
375.7224068833
 10
137.8048754298
 20
375.4287347985
 10
141.335534677
 20
375.3306553555
 10
144.8661939242
 20
375.4287347985
 10
148.3750858345
 20
375.7224068833
 10
151.8405757845
 20
376.2098387671
 10
155.2412992344
 20
376.8880204154
 10
158.5562888533
 20
377.7527944041
 10
161.7651067675
 20
378.7987963153
 10
164.847970754
 20
380.0196186495
 10
167.7858706564
 20
381.4076916171
 10
170.5606959761
 20
382.9544917536
 10
173.1553401799
 20
384.6504525138
 10
175.5538012833
 20
386.4851430846
 10
177.7412991971
 20
388.4472385836
 10
179.7043409199
 20
390.5246541691
 10
181.4308267087
 20
392.7045599414
 10
182.9101134092
 20
394.9735448552
 10
184.1330777854
 20
397.3176018191
 10
185.0921798498
 20
399.7222767068
 10
185.7815112919
 20
402.1727428628
 10
186.196814105
 20
404.6539054108
 10
186.3355364651
 20
407.1504608584
 10
186.196814105
 20
409.647016306
 10
185.7815112919
 20
412.1281639529
 10
185.0921798498
 20
414.5786450101
 10
184.1330777854
 20
416.9833198977
 10
182.9101134092
 20
419.3273619605
 10
181.4308267087
 20
421.5963468743
 10
179.7043409199
 20
423.7762526465
 10
177.7412991971
 20
425.853668232
 10
175.5538012833
 20
427.8157637311
 10
173.1553401799
 20
429.6504543019
 10
170.5606959761
 20
431.3464299632
 10
167.7858706564
 20
432.8932226492
 10
164.847970754
 20
434.2813030673
 10
161.7651067675
 20
435.5021105004
 10
158.5562888533
 20
436.5481198621
 10
155.2412992344
 20
437.4128864003
 10
151.8405757845
 20
438.0910754991
 10
148.3750858345
 20
438.5785073829
 10
144.8661939242
 20
438.8721720172
 10
141.335534677
 20
438.9702589107
  0
LWPOLYLINE
  5
93
330
1F
100
AcDbEntity
  8
0
  6
Continuous
 62
     7
370
    25
100
AcDbPolyline
 90
       76
 70
   128
 43
0.0
 10
141.335534677
 20
435.1518885089
 10
138.0218919833
 20
435.053682406
 10
134.7314923071
 20
434.7597570015
 10
131.487414986
 20
434.2721686555
 10
128.3124152572
 20
433.5943446351
 10
125.2287633718
 20
432.7310309601
 10
122.2580883653
 20
431.6882924033
 10
119.4212295116
 20
430.4734454346
 10
116.7380817235
 20
429.0949986172
 10
114.227468893
 20
427.5626228047
 10
111.9070004672
 20
425.8870766354
 10
109.7929503769
 20
424.0801022244
 10
107.9001490027
 20
422.1543655587
 10
106.2418732793
 20
420.1234117938
 10
104.8297535629
 20
418.0014417363
 10
103.6736954004
 20
415.8033714486
 10
102.7818087489
 20
413.5446087313
 10
102.160352096
 20
411.2409935189
 10
101.8136765808
 20
408.90867867
 10
101.7442185432
 20
406.5640405608
 10
101.9524659962
 20
404.2235151721
 10
102.436958626
 20
401.9035086823
 10
103.1942952425
 20
399.6203229619
 10
104.2191673071
 20
397.3899469567
 10
105.5043850095
 20
395.2280268861
 10
107.0409294218
 20
393.1497470332
 10
108.8180270047
 20
391.1696658326
 10
110.8232110739
 20
389.3016711665
 10
113.0424167961
 20
387.5588909579
 10
115.4600780458
 20
385.9535143567
 10
118.0592391641
 20
384.4968215419
 10
120.8216648549
 20
383.19903471
 10
123.7279817463
 20
382.0692435694
 10
126.7578022555
 20
381.1153904391
 10
129.8898754642
 20
380.344136138
 10
133.1022314728
 20
379.7609195901
 10
136.3723387942
 20
379.3698237134
 10
139.6772588371
 20
379.1735903216
 10
142.9938105168
 20
379.1735903216
 10
146.2987305597
 20
379.3698237134
 10
149.5688378811
 20
379.7609195901
 10
152.7811938897
 20
380.344136138
 10
155.9132670984
 20
381.1153904391
 10
158.9430876077
 20
382.0692435694
 10
161.849404499
 20
383.19903471
 10
164.6118301899
 20
384.4968215419
 10
167.2109913081
 20
385.9535143567
 10
169.6286525578
 20
387.5588909579
 10
171.84785828
 20
389.3016711665
 10
173.8530423493
 20
391.1696658326
 10
175.6301399321
 20
393.1497470332
 10
177.1666843445
 20
395.2280268861
 10
178.4519020469
 20
397.3899469567
 10
179.4767741114
 20
399.6203229619
 10
180.234110728
 20
401.9035086823
 10
180.7186033577
 20
404.2235151721
 10
180.9268508107
 20
406.5640405608
 10
180.8573927731
 20
408.90867867
 10
180.5107172579
 20
411.2409935189
 10
179.889260605
 20
413.5446087313
 10
178.9973739535
 20
415.8033714486
 10
177.8413157911
 20
418.0014417363
 10
176.4291960747
 20
420.1234117938
 10
174.7709203512
 20
422.1543655587
 10
172.878118977
 20
424.0801022244
 10
170.7640688867
 20
425.8870766354
 10
168.4436004609
 20
427.5626228047
 10
165.9329876304
 20
429.0949986172
 10
163.2498398424
 20
430.4734454346
 10
160.4129809887
 20
431.6882924033
 10
157.4423059822
 20
432.7310309601
 10
154.3586540968
 20
433.5943446351
 10
151.183654368
 20
434.2721686555
 10
147.9395770468
 20
434.7597570015
 10
144.6491773706
 20
435.053682406
 10
141.335534677
 20
435.1518885089
  0
INSERT
  5
9F
330
1F
100
AcDbEntity
  8
FORMAT
100
AcDbBlockReference
  2
SW_CENTERMARKSYMBOL_0
 10
141.335534677
 20
557.764200945
 30
0.0
  0
LINE
  5
A0
330
1F
100
AcDbEntity
  8
0
  6
Continuous
 62
     7
370
    25
100
AcDbLine
 10
96.3355328888
 20
-239.8642331992
 30
0.0
 11
96.3355328888
 21
-390.4779732857
 31
0.0
  0
LINE
  5
A1
330
1F
100
AcDbEntity
  8
0
  6
Continuous
 62
     7
370
    25
100
AcDbLine
 10
186.3355364651
 20
-390.4779732857
 30
0.0
 11
186.3355364651
 21
-239.8642331992
 31
0.0
  0
CIRCLE
  5
A2
330
1F
100
AcDbEntity
  8
0
  6
Continuous
 62
     7
370
    25
100
AcDbCircle
 10
141.335534677
 20
-390.4779732857
 30
0.0
 40
39.59999999999999
  0
CIRCLE
  5
A3
330
1F
100
AcDbEntity
  8
0
  6
Continuous
 62
     7
370
    25
100
AcDbCircle
 10
141.335534677
 20
-390.4779732857
 30
0.0
 40
45.0
  0
LWPOLYLINE
  5
A4
330
1F
100
AcDbEntity
  8
0
  6
Continuous
 62
     7
370
    25
100
AcDbPolyline
 90
       41
 70
   128
 43
0.0
 10
96.3355328888
 20
-239.8642331992
 10
96.474255249
 20
-237.3676777516
 10
96.889558062
 20
-234.8865152035
 10
97.5788895041
 20
-232.4360490475
 10
98.5379915685
 20
-230.0313741599
 10
99.7609559447
 20
-227.6873171959
 10
101.2402426452
 20
-225.4183322821
 10
102.966728434
 20
-223.2384265099
 10
104.9297701568
 20
-221.1610109244
 10
107.1172680706
 20
-219.1989154254
 10
109.5157291741
 20
-217.3642248545
 10
112.1103733779
 20
-215.6682640944
 10
114.8851986975
 20
-214.1214639578
 10
117.8230986
 20
-212.7333909903
 10
120.9059625865
 20
-211.512568656
 10
124.1147805006
 20
-210.4665667449
 10
127.4297701195
 20
-209.6017927561
 10
130.8304935694
 20
-208.9236111079
 10
134.2959835195
 20
-208.4361792241
 10
137.8048754298
 20
-208.1425071393
 10
141.335534677
 20
-208.0444276963
 10
144.8661939242
 20
-208.1425071393
 10
148.3750858345
 20
-208.4361792241
 10
151.8405757845
 20
-208.9236111079
 10
155.2412992344
 20
-209.6017927561
 10
158.5562888533
 20
-210.4665667449
 10
161.7651067675
 20
-211.512568656
 10
164.847970754
 20
-212.7333909903
 10
167.7858706564
 20
-214.1214639578
 10
170.5606959761
 20
-215.6682640944
 10
173.1553401799
 20
-217.3642248545
 10
175.5538012833
 20
-219.1989154254
 10
177.7412991971
 20
-221.1610109244
 10
179.7043409199
 20
-223.2384265099
 10
181.4308267087
 20
-225.4183322821
 10
182.9101134092
 20
-227.6873171959
 10
184.1330777854
 20
-230.0313741599
 10
185.0921798498
 20
-232.4360490475
 10
185.7815112919
 20
-234.8865152035
 10
186.196814105
 20
-237.3676777516
 10
186.3355364651
 20
-239.8642331992
  0
INSERT
  5
B0
330
1F
100
AcDbEntity
  8
FORMAT
100
AcDbBlockReference
  2
SW_CENTERMARKSYMBOL_1
 10
141.335534677
 20
-390.4779732857
 30
0.0
  0
LINE
  5
B1
330
1F
100
AcDbEntity
  8
0
  6
Continuous
 62
     7
370
    25
100
AcDbLine
 10
507.4747370863
 20
166.4582372409
 30
0.0
 11
507.4747370863
 21
270.8186388713
 31
0.0
  0
LINE
  5
B2
330
1F
100
AcDbEntity
  8
0
  6
Continuous
 62
     7
370
    25
100
AcDbLine
 10
507.4747370863
 20
-50.1813709039
 30
0.0
 11
507.4747370863
 21
39.1790152293
 31
0.0
  0
LINE
  5
B3
330
1F
100
AcDbEntity
  8
0
  6
Continuous
 62
     7
370
    25
100
AcDbLine
 10
417.47473351
 20
270.8186388713
 30
0.0
 11
417.47473351
 21
-50.1813709039
 31
0.0
  0
LINE
  5
B4
330
1F
100
AcDbEntity
  8
0
  6
Continuous
 62
     7
370
    25
100
AcDbLine
 10
581.2686773324
 20
240.2521849376
 30
0.0
 11
507.4747370863
 21
166.4582372409
 31
0.0
  0
LINE
  5
B5
330
1F
100
AcDbEntity
  8
0
  6
Continuous
 62
     7
370
    25
100
AcDbLine
 10
507.4747370863
 20
39.1790152293
 30
0.0
 11
644.9082808876
 21
176.6125739318
 31
0.0
  0
LINE
  5
B6
330
1F
100
AcDbEntity
  8
0
  6
Continuous
 62
     7
370
    25
100
AcDbLine
 10
462.4747352982
 20
-50.1813709039
 30
0.0
 11
507.4747370863
 21
-50.1813709039
 31
0.0
  0
LINE
  5
B7
330
1F
100
AcDbEntity
  8
0
  6
Continuous
 62
     7
370
    25
100
AcDbLine
 10
417.47473351
 20
-50.1813709039
 30
0.0
 11
462.4747352982
 21
-50.1813709039
 31
0.0
  0
LINE
  5
B8
330
1F
100
AcDbEntity
  8
0
  6
Continuous
 62
     7
370
    25
100
AcDbLine
 10
462.4747352982
 20
270.8186388713
 30
0.0
 11
507.4747370863
 21
270.8186388713
 31
0.0
  0
LINE
  5
B9
330
1F
100
AcDbEntity
  8
0
  6
Continuous
 62
     7
370
    25
100
AcDbLine
 10
417.47473351
 20
270.8186388713
 30
0.0
 11
462.4747352982
 21
270.8186388713
 31
0.0
  0
LWPOLYLINE
  5
BA
330
1F
100
AcDbEntity
  8
0
  6
Continuous
 62
     7
370
    25
100
AcDbPolyline
 90
       33
 70
   128
 43
0.0
 10
462.4747352982
 20
57.8186318976
 10
464.6827807492
 20
63.149321149
 10
466.8855064856
 20
68.46717305
 10
469.0776065299
 20
73.7593726021
 10
471.2538000504
 20
79.0131718618
 10
473.4088432351
 20
84.2158973914
 10
475.5375458235
 20
89.3550396663
 10
477.6347790221
 20
94.4182158214
 10
479.6954894746
 20
99.3932069045
 10
481.714714163
 20
104.2680472833
 10
483.6875887895
 20
109.0309799415
 10
485.6093580211
 20
113.6705458861
 10
487.4753950471
 20
118.1755692464
 10
489.2812034422
 20
122.5351721746
 10
491.0224339301
 20
126.7388642531
 10
492.6948881084
 20
130.7765275937
 10
494.2945408011
 20
134.638431738
 10
495.8175363326
 20
138.3152634603
 10
497.2602071548
 20
141.7981863719
 10
498.6190738464
 20
145.0787813169
 10
499.8908693278
 20
148.1491655809
 10
501.0725239599
 20
151.0019332868
 10
502.1611916209
 20
153.6302149993
 10
503.1542534316
 20
156.0276777249
 10
504.0493140304
 20
158.1885398131
 10
504.8442164743
 20
160.1076156598
 10
505.5370496893
 20
161.7802561027
 10
506.1261410201
 20
163.2024527293
 10
506.610071131
 20
164.3707633716
 10
506.9876777315
 20
165.2823866111
 10
507.2580481255
 20
165.935117076
 10
507.4205303872
 20
166.3273752433
 10
507.4747370863
 20
166.4582372409
  0
LWPOLYLINE
  5
BB
330
1F
100
AcDbEntity
  8
0
  6
Continuous
 62
     7
370
    25
100
AcDbPolyline
 90
       22
 70
   128
 43
0.0
 10
507.4747370863
 20
39.1790152293
 10
507.4417123878
 20
39.1926944953
 10
507.1778277243
 20
39.3020019632
 10
506.6516081179
 20
39.5199686986
 10
505.8661418343
 20
39.8453206521
 10
504.8260370577
 20
40.2761430245
 10
503.5373995388
 20
40.8099175197
 10
502.0077878917
 20
41.4434999925
 10
500.2461800659
 20
42.1731875044
 10
498.2629137421
 20
42.9946810704
 10
496.0696304524
 20
43.9031676155
 10
493.6791973496
 20
44.8933199745
 10
491.1056457395
 20
45.959319244
 10
488.3640742237
 20
47.0949143869
 10
485.4705760563
 20
48.2934371334
 10
482.4421273852
 20
49.5478615862
 10
479.296503433
 20
50.8508265716
 10
476.0521620819
 20
52.1946728927
 10
472.7281432906
 20
53.5715252858
 10
469.3439531447
 20
54.9733073217
 10
465.9194516325
 20
56.391778658
 10
462.4747352982
 20
57.8186318976
  0
LWPOLYLINE
  5
BC
330
1F
100
AcDbEntity
  8
0
  6
Continuous
 62
     7
370
    25
100
AcDbPolyline
 90
       42
 70
   128
 43
0.0
 10
581.2686773324
 20
240.2521849376
 10
581.366764226
 20
240.1540756923
 10
581.6604288602
 20
239.8604334098
 10
582.147860744
 20
239.3729866248
 10
582.8260498429
 20
238.6948049766
 10
583.690816381
 20
237.8300309878
 10
584.7368257428
 20
236.7840290767
 10
585.9576331759
 20
235.5632067424
 10
587.345713594
 20
234.1751337749
 10
588.89250628
 20
232.6283336383
 10
590.5884819413
 20
230.9323728782
 10
592.4231725121
 20
229.0976823073
 10
594.3852680111
 20
227.1355868083
 10
596.4626835966
 20
225.058186124
 10
598.6425893689
 20
222.8782654506
 10
600.9115742827
 20
220.6092954379
 10
603.2556163454
 20
218.2652235728
 10
605.6602912331
 20
215.8605635863
 10
608.1107722903
 20
213.4100974303
 10
610.5919199372
 20
210.9289348823
 10
613.0884753847
 20
208.4323645335
 10
615.5850308323
 20
205.9358239871
 10
618.0661933804
 20
203.454661439
 10
620.5166595364
 20
201.004195283
 10
622.9213344241
 20
198.5995054942
 10
625.265391388
 20
196.2554634315
 10
627.5343763018
 20
193.9864785176
 10
629.714282074
 20
191.8065727454
 10
631.7916976595
 20
189.7291571599
 10
633.7537931586
 20
187.7670616609
 10
635.5884837294
 20
185.93237109
 10
637.2844444895
 20
184.2364103299
 10
638.8312446261
 20
182.6896101934
 10
640.2193175936
 20
181.3015223247
 10
641.4401399279
 20
180.0807148915
 10
642.4861418391
 20
179.0347129804
 10
643.3509158278
 20
178.1699389916
 10
644.029097476
 20
177.4917573434
 10
644.5165293598
 20
177.0043254596
 10
644.8102014447
 20
176.7106533748
 10
644.9082808876
 20
176.6125739318
 10
644.9082808876
 20
176.6125739318
  0
LINE
  5
BD
330
1F
100
AcDbEntity
  8
0
  6
Continuous
 62
     7
370
    25
100
AcDbLine
 10
-109.0115473573
 20
-50.1813709039
 30
0.0
 11
-109.0115473573
 21
270.8186388713
 31
0.0
  0
LINE
  5
BE
330
1F
100
AcDbEntity
  8
0
  6
Continuous
 62
     7
370
    25
100
AcDbLine
 10
-199.0115509336
 20
39.1790152293
 30
0.0
 11
-199.0115509336
 21
-50.1813709039
 31
0.0
  0
LINE
  5
BF
330
1F
100
AcDbEntity
  8
0
  6
Continuous
 62
     7
370
    25
100
AcDbLine
 10
-199.0115509336
 20
270.8186388713
 30
0.0
 11
-199.0115509336
 21
166.4582372409
 31
0.0
  0
LINE
  5
C0
330
1F
100
AcDbEntity
  8
0
  6
Continuous
 62
     7
370
    25
100
AcDbLine
 10
-336.4450947349
 20
176.6125739318
 30
0.0
 11
-199.0115509336
 21
39.1790152293
 31
0.0
  0
LINE
  5
C1
330
1F
100
AcDbEntity
  8
0
  6
Continuous
 62
     7
370
    25
100
AcDbLine
 10
-199.0115509336
 20
166.4582372409
 30
0.0
 11
-272.8054911797
 21
240.2521849376
 31
0.0
  0
LINE
  5
C2
330
1F
100
AcDbEntity
  8
0
  6
Continuous
 62
     7
370
    25
100
AcDbLine
 10
-199.0115509336
 20
-50.1813709039
 30
0.0
 11
-109.0115473573
 21
-50.1813709039
 31
0.0
  0
LINE
  5
C3
330
1F
100
AcDbEntity
  8
0
  6
Continuous
 62
     7
370
    25
100
AcDbLine
 10
-199.0115509336
 20
270.8186388713
 30
0.0
 11
-109.0115473573
 21
270.8186388713
 31
0.0
  0
LWPOLYLINE
  5
C4
330
1F
100
AcDbEntity
  8
0
  6
Continuous
 62
     7
370
    25
100
AcDbPolyline
 90
       33
 70
   128
 43
0.0
 10
-199.0115509336
 20
166.4582372409
 10
-198.9573442345
 20
166.3273752433
 10
-198.7948619728
 20
165.935117076
 10
-198.5244915788
 20
165.2823866111
 10
-198.1468849783
 20
164.3707633716
 10
-197.6629548674
 20
163.2024527293
 10
-197.0738635366
 20
161.7802561027
 10
-196.3810303216
 20
160.1076156598
 10
-195.5861278777
 20
158.1885398131
 10
-194.6910672788
 20
156.0276777249
 10
-193.6980054681
 20
153.6302149993
 10
-192.6093378072
 20
151.0019332868
 10
-191.4276831751
 20
148.1491655809
 10
-190.1558876936
 20
145.0787813169
 10
-188.797021002
 20
141.7981863719
 10
-187.3543501799
 20
138.3152634603
 10
-185.8313546483
 20
134.638431738
 10
-184.2317019557
 20
130.7765275937
 10
-182.5592477773
 20
126.7388642531
 10
-180.8180172895
 20
122.5351721746
 10
-179.0122088944
 20
118.1755692464
 10
-177.1461718683
 20
113.6705458861
 10
-175.2244026368
 20
109.0309799415
 10
-173.2515280102
 20
104.2680472833
 10
-171.2323033218
 20
99.3932069045
 10
-169.1715928693
 20
94.4182158214
 10
-167.0743596707
 20
89.3550396663
 10
-164.9456570824
 20
84.2158973914
 10
-162.7906138976
 20
79.0131718618
 10
-160.6144203772
 20
73.7593726021
 10
-158.4223203328
 20
68.46717305
 10
-156.2195945964
 20
63.149321149
 10
-154.0115491454
 20
57.8186318976
  0
LWPOLYLINE
  5
C5
330
1F
100
AcDbEntity
  8
0
  6
Continuous
 62
     7
370
    25
100
AcDbPolyline
 90
       22
 70
   128
 43
0.0
 10
-154.0115491454
 20
57.8186318976
 10
-157.4562654798
 20
56.391778658
 10
-160.880766992
 20
54.9733073217
 10
-164.2649571379
 20
53.5715252858
 10
-167.5889759292
 20
52.1946728927
 10
-170.8333172803
 20
50.8508265716
 10
-173.9789412324
 20
49.5478615862
 10
-177.0073899035
 20
48.2934371334
 10
-179.9008880709
 20
47.0949143869
 10
-182.6424595867
 20
45.959319244
 10
-185.2160111968
 20
44.8933199745
 10
-187.6064442997
 20
43.9031676155
 10
-189.7997275894
 20
42.9946810704
 10
-191.7829939132
 20
42.1731875044
 10
-193.5446017389
 20
41.4434999925
 10
-195.074213386
 20
40.8099175197
 10
-196.3628509049
 20
40.2761430245
 10
-197.4029556816
 20
39.8453206521
 10
-198.1884219651
 20
39.5199686986
 10
-198.7146415715
 20
39.3020019632
 10
-198.9785262351
 20
39.1926944953
 10
-199.0115509336
 20
39.1790152293
  0
LWPOLYLINE
  5
C6
330
1F
100
AcDbEntity
  8
0
  6
Continuous
 62
     7
370
    25
100
AcDbPolyline
 90
       42
 70
   128
 43
0.0
 10
-336.4450947349
 20
176.6125739318
 10
-336.3470152919
 20
176.7106533748
 10
-336.0533432071
 20
177.0043254596
 10
-335.5659113233
 20
177.4917573434
 10
-334.887729675
 20
178.1699389916
 10
-334.0229556863
 20
179.0347129804
 10
-332.9769537752
 20
180.0807148915
 10
-331.7561314409
 20
181.3015223247
 10
-330.3680584733
 20
182.6896101934
 10
-328.8212583368
 20
184.2364103299
 10
-327.1252975767
 20
185.93237109
 10
-325.2906070058
 20
187.7670616609
 10
-323.3285115068
 20
189.7291571599
 10
-321.2510959213
 20
191.8065727454
 10
-319.0711901491
 20
193.9864785176
 10
-316.8022052352
 20
196.2554634315
 10
-314.4581482713
 20
198.5995054942
 10
-312.0534733837
 20
201.004195283
 10
-309.6030072276
 20
203.454661439
 10
-307.1218446796
 20
205.9358239871
 10
-304.625289232
 20
208.4323645335
 10
-302.1287337844
 20
210.9289348823
 10
-299.6475861375
 20
213.4100974303
 10
-297.1971050804
 20
215.8605635863
 10
-294.7924301927
 20
218.2652235728
 10
-292.4483881299
 20
220.6092954379
 10
-290.1794032161
 20
222.8782654506
 10
-287.9994974439
 20
225.058186124
 10
-285.9220818584
 20
227.1355868083
 10
-283.9599863593
 20
229.0976823073
 10
-282.1252957885
 20
230.9323728782
 10
-280.4293201272
 20
232.6283336383
 10
-278.8825274413
 20
234.1751337749
 10
-277.4944470231
 20
235.5632067424
 10
-276.27363959
 20
236.7840290767
 10
-275.2276302283
 20
237.8300309878
 10
-274.3628636901
 20
238.6948049766
 10
-273.6846745913
 20
239.3729866248
 10
-273.1972427075
 20
239.8604334098
 10
-272.9035780733
 20
240.1540756923
 10
-272.8054911797
 20
240.2521849376
 10
-272.8054911797
 20
240.2521849376
  0
LINE
  5
C7
330
1F
100
AcDbEntity
  8
0
  6
Continuous
 62
     7
370
    25
100
AcDbLine
 10
308.9061821573
 20
-175.6903014755
 30
0.0
 11
409.3773292652
 21
-349.711421804
 31
0.0
  0
LINE
  5
C8
330
1F
100
AcDbEntity
  8
0
  6
Continuous
 62
     7
370
    25
100
AcDbLine
 10
461.9852178715
 20
-260.8309627536
 30
0.0
 11
386.8484702806
 21
-130.6903003136
 31
0.0
  0
LINE
  5
C9
330
1F
100
AcDbEntity
  8
0
  6
Continuous
 62
     7
370
    25
100
AcDbLine
 10
499.3773289366
 20
-425.8401190978
 30
0.0
 11
499.3773289366
 21
-163.7305105006
 31
0.0
  0
LINE
  5
CA
330
1F
100
AcDbEntity
  8
0
  6
Continuous
 62
     7
370
    25
100
AcDbLine
 10
409.3773279481
 20
-348.4158773022
 30
0.0
 11
409.3773279481
 21
-425.8401190978
 31
0.0
  0
LINE
  5
CB
330
1F
100
AcDbEntity
  8
0
  6
Continuous
 62
     7
370
    25
100
AcDbLine
 10
409.3773279481
 20
-163.7305105006
 30
0.0
 11
409.3773279481
 21
-169.7114233822
 31
0.0
  0
ELLIPSE
  5
CC
330
1F
100
AcDbEntity
  8
0
  6
Continuous
 62
     7
370
    25
100
AcDbEllipse
 10
454.3773284424
 20
-337.6537114141
 30
0.0
 11
44.83776421404787
 21
12.01424274210774
 31
0.0
210
0.0
220
0.0
230
1.0
 40
0.3177652438
 41
0.7004580896382417
 42
3.056652579830586
  0
ELLIPSE
  5
CD
330
1F
100
AcDbEntity
  8
0
  6
Continuous
 62
     7
370
    25
100
AcDbEllipse
 10
454.3773284424
 20
-337.6537114141
 30
0.0
 11
-29.00555936608663
 21
108.2502209810523
 31
0.0
210
0.0
220
0.0
230
1.0
 40
0.3178248929
 41
4.797329054143887
 42
5.412847070022957
  0
LWPOLYLINE
  5
CE
330
1F
100
AcDbEntity
  8
0
  6
Continuous
 62
     7
370
    25
100
AcDbPolyline
 90
       81
 70
   128
 43
0.0
 10
370.3773264661
 20
-140.1970986561
 10
367.8114154628
 20
-141.6783988158
 10
365.1226019443
 20
-143.2306385384
 10
362.3274641101
 20
-144.8443141133
 10
359.443237387
 20
-146.5094266714
 10
356.4877034646
 20
-148.2157409257
 10
353.479086245
 20
-149.9527113988
 10
350.4359310002
 20
-151.7096616962
 10
347.3770009803
 20
-153.4757225235
 10
344.3211555828
 20
-155.2400358647
 10
341.2872291807
 20
-156.9916971846
 10
338.2939389261
 20
-158.7199303309
 10
335.3597332846
 20
-160.4140715626
 10
332.5026985229
 20
-162.0636661294
 10
329.7404625601
 20
-163.6585724496
 10
327.0900342839
 20
-165.1889210523
 10
324.5677798423
 20
-166.6453229375
 10
322.1892303492
 20
-168.0187372656
 10
319.9690476393
 20
-169.3007344742
 10
317.9209478777
 20
-170.4834187155
 10
316.0575250695
 20
-171.5594932655
 10
314.3902853045
 20
-172.5222894207
 10
312.9295018769
 20
-173.3659109939
 10
311.6841915781
 20
-174.0851385041
 10
310.662017232
 20
-174.6755584616
 10
309.8692850609
 20
-175.133491892
 10
309.3108840992
 20
-175.4561510001
 10
308.9902677542
 20
-175.64152815
 10
308.9093932203
 20
-175.6884916978
 10
309.0687767963
 20
-175.5967418881
 10
309.4674227629
 20
-175.3668519336
 10
310.1028879201
 20
-175.0002307611
 10
310.9712328545
 20
-174.499151161
 10
312.0671259899
 20
-173.866701885
 10
313.383788269
 20
-173.1067587661
 10
314.9131301311
 20
-172.224027306
 10
316.6456942186
 20
-171.2239541035
 10
318.5708219886
 20
-170.1126914924
 10
320.676627042
 20
-168.8971007933
 10
322.9501307837
 20
-167.5846739902
 10
325.3773312402
 20
-166.183494007
 10
327.9432369751
 20
-164.7022151407
 10
330.632055762
 20
-163.1499541247
 10
333.4271935962
 20
-161.5362907172
 10
336.3114150509
 20
-159.8711751177
 10
339.2669542417
 20
-158.1648639047
 10
342.2755661929
 20
-156.4278903904
 10
345.3187319744
 20
-154.670958343
 10
348.377656726
 20
-152.904882307
 10
351.4335073918
 20
-151.1405720071
 10
354.4674232572
 20
-149.3889046045
 10
357.4607135119
 20
-147.6606714582
 10
360.3949191533
 20
-145.9665302265
 10
363.2519539151
 20
-144.3169234923
 10
366.0141898778
 20
-142.7220293395
 10
368.664618154
 20
-141.1916685694
 10
371.1868831323
 20
-139.7352971018
 10
373.5654326255
 20
-138.3618584388
 10
375.7856047986
 20
-137.0798551475
 10
377.833715097
 20
-135.8971769889
 10
379.6971379051
 20
-134.8211267737
 10
381.3643776701
 20
-133.8583062837
 10
382.825150561
 20
-133.0146786278
 10
384.0704713965
 20
-132.2954572003
 10
385.0926457426
 20
-131.7050615776
 10
385.885367377
 20
-131.2470977296
 10
386.4437683387
 20
-130.924450789
 10
386.7643846837
 20
-130.7390614717
 10
386.8452592176
 20
-130.6921100913
 10
386.6858756416
 20
-130.783859901
 10
386.287229675
 20
-131.0137498555
 10
385.6517750545
 20
-131.3803771108
 10
384.7834248518
 20
-131.8814536694
 10
383.6875369848
 20
-132.5139181542
 10
382.3708641689
 20
-133.273843023
 10
380.8415275751
 20
-134.1565775244
 10
379.1089582193
 20
-135.1566476856
 10
377.1838357176
 20
-136.2679133381
 10
375.0780306642
 20
-137.4834918698
 10
372.8045216542
 20
-138.7959399663
 10
370.3773264661
 20
-140.1970986561
  0
LWPOLYLINE
  5
CF
330
1F
100
AcDbEntity
  8
0
  6
Continuous
 62
     7
370
    25
100
AcDbPolyline
 90
       76
 70
   128
 43
0.0
 10
367.6773308618
 20
-141.7562978902
 10
365.2647894414
 20
-143.1490353553
 10
362.7302888709
 20
-144.6121982275
 10
360.0916027725
 20
-146.1355500748
 10
357.3672449727
 20
-147.7083783033
 10
354.5763188599
 20
-149.3196602153
 10
351.7384069136
 20
-150.958078114
 10
348.8734182512
 20
-152.6121742417
 10
346.0014371633
 20
-154.2703165531
 10
343.1426124775
 20
-155.9208842616
 10
340.3170034596
 20
-157.5522959718
 10
337.5444204456
 20
-159.1531138622
 10
334.8443063033
 20
-160.7121121231
 10
332.2356271147
 20
-162.2183522386
 10
329.7366482703
 20
-163.6612514364
 10
327.3649212982
 20
-165.0307119578
 10
325.1370757644
 20
-166.3171317143
 10
323.068737613
 20
-167.511451436
 10
321.1744053598
 20
-168.6053234993
 10
319.467381604
 20
-169.5911028062
 10
317.9596334162
 20
-170.4618178958
 10
316.6617291189
 20
-171.2113777957
 10
315.5827908704
 20
-171.8345385676
 10
314.7303708593
 20
-172.3269261366
 10
314.1104486696
 20
-172.685086486
 10
313.727383866
 20
-172.9065008779
 10
313.5838527734
 20
-172.9896223709
 10
313.6808603307
 20
-172.9338689831
 10
314.0177440421
 20
-172.7396335906
 10
314.5921160253
 20
-172.4082565687
 10
315.3999631099
 20
-171.9420896767
 10
316.4356191791
 20
-171.3443903704
 10
317.6918125845
 20
-170.6193552769
 10
319.1597431956
 20
-169.7720635492
 10
320.8290942543
 20
-168.8084700414
 10
322.6881765956
 20
-167.7353220428
 10
324.7239451113
 20
-166.5601497925
 10
326.9221185229
 20
-165.2911973332
 10
329.2672747058
 20
-163.9373674859
 10
331.7429640414
 20
-162.5081564133
 10
334.3318256501
 20
-161.0135865199
 10
337.0157007433
 20
-159.4641410149
 10
339.7757700947
 20
-157.8706845484
 10
342.5926527393
 20
-156.2444062349
 10
345.4466120982
 20
-154.5967006428
 10
348.3176159061
 20
-152.9391332068
 10
351.1855377257
 20
-151.2833238779
 10
354.030255071
 20
-149.6409026439
 10
356.8318021896
 20
-148.023360483
 10
359.5705531382
 20
-146.442065331
 10
362.2272797341
 20
-144.9081069559
 10
364.7833464848
 20
-143.4322452416
 10
367.2208409798
 20
-142.0248227344
 10
369.5226489644
 20
-140.6957212983
 10
371.6726229272
 20
-139.4542647694
 10
373.6557032724
 20
-138.3091611564
 10
375.4579578325
 20
-137.2684311569
 10
377.0667530895
 20
-136.3393579553
 10
378.4708121274
 20
-135.5285145948
 10
379.6602778519
 20
-134.8415571256
 10
380.626805187
 20
-134.2832808663
 10
381.3636190269
 20
-133.8576356064
 10
381.8655590167
 20
-133.5676023999
 10
382.129082187
 20
-133.4151920368
 10
382.152370955
 20
-133.4014921718
 10
381.9352356598
 20
-133.5266019239
 10
381.4792067589
 20
-133.7896394597
 10
380.7874887299
 20
-134.1887564317
 10
379.8649258261
 20
-134.7211577397
 10
378.717990223
 20
-135.3830961922
 10
377.3547332858
 20
-136.1699614665
 10
375.7847170806
 20
-137.0761979677
 10
374.0189472034
 20
-138.0954652729
 10
372.0698151568
 20
-139.2206044659
 10
369.9509878797
 20
-140.4437505805
 10
367.6773308618
 20
-141.7562978902
  0
LWPOLYLINE
  5
D0
330
1F
100
AcDbEntity
  8
0
  6
Continuous
 62
     7
370
    25
100
AcDbPolyline
 90
       81
 70
   128
 43
0.0
 10
422.5575220246
 20
-444.2093023437
 10
420.1590604504
 20
-442.7114458889
 10
417.9715626215
 20
-441.1095736867
 10
416.0085221149
 20
-439.4135587428
 10
414.2820350761
 20
-437.6338602848
 10
412.8027498406
 20
-435.7814490584
 10
411.5797865911
 20
-433.8677457402
 10
410.6206823697
 20
-431.9045496556
 10
409.9313535401
 20
-429.9039654064
 10
409.5160503487
 20
-427.8783249358
 10
409.3773279481
 20
-425.8401190978
 10
409.5160503487
 20
-423.8019132598
 10
409.9313535401
 20
-421.7762727891
 10
410.6206823697
 20
-419.7756885399
 10
411.5797865911
 20
-417.8124924553
 10
412.8027498406
 20
-415.8987891371
 10
414.2820350761
 20
-414.0463779107
 10
416.0085221149
 20
-412.2666794528
 10
417.9715626215
 20
-410.5706645089
 10
420.1590604504
 20
-408.9687923066
 10
422.5575220246
 20
-407.4709358518
 10
425.1521666419
 20
-406.0863334571
 10
427.9269913415
 20
-404.8235178403
 10
430.8648937225
 20
-403.6902786775
 10
433.9477559084
 20
-402.693598925
 10
437.1565739511
 20
-401.8396257358
 10
440.471564515
 20
-401.1336240796
 10
443.8722883542
 20
-400.5799449979
 10
447.3377774116
 20
-400.1820039351
 10
450.8466698205
 20
-399.9422545059
 10
454.3773284424
 20
-399.8621717686
 10
457.9079870643
 20
-399.9422545059
 10
461.4168794731
 20
-400.1820039351
 10
464.8823685305
 20
-400.5799449979
 10
468.2830923698
 20
-401.1336240796
 10
471.5980829337
 20
-401.8396257358
 10
474.8069009764
 20
-402.693598925
 10
477.8897631623
 20
-403.6902786775
 10
480.8276655433
 20
-404.8235178403
 10
483.6024902429
 20
-406.0863334571
 10
486.1971348602
 20
-407.4709358518
 10
488.5955964344
 20
-408.9687923066
 10
490.7830942633
 20
-410.5706645089
 10
492.7461347698
 20
-412.2666794528
 10
494.4726218086
 20
-414.0463779107
 10
495.9519070442
 20
-415.8987891371
 10
497.1748702936
 20
-417.8124924553
 10
498.1339745151
 20
-419.7756885399
 10
498.8233033446
 20
-421.7762727891
 10
499.238606536
 20
-423.8019132598
 10
499.3773289366
 20
-425.8401190978
 10
499.238606536
 20
-427.8783249358
 10
498.8233033446
 20
-429.9039654064
 10
498.1339745151
 20
-431.9045496556
 10
497.1748702936
 20
-433.8677457402
 10
495.9519070442
 20
-435.7814490584
 10
494.4726218086
 20
-437.6338602848
 10
492.7461347698
 20
-439.4135587428
 10
490.7830942633
 20
-441.1095736867
 10
488.5955964344
 20
-442.7114458889
 10
486.1971348602
 20
-444.2093023437
 10
483.6024902429
 20
-445.5939047384
 10
480.8276655433
 20
-446.8567203552
 10
477.8897631623
 20
-447.989959518
 10
474.8069009764
 20
-448.9866392706
 10
471.5980829337
 20
-449.8406124597
 10
468.2830923698
 20
-450.546614116
 10
464.8823685305
 20
-451.1002931976
 10
461.4168794731
 20
-451.4982342605
 10
457.9079870643
 20
-451.7379836897
 10
454.3773284424
 20
-451.818066427
 10
450.8466698205
 20
-451.7379836897
 10
447.3377774116
 20
-451.4982342605
 10
443.8722883542
 20
-451.1002931976
 10
440.471564515
 20
-450.546614116
 10
437.1565739511
 20
-449.8406124597
 10
433.9477559084
 20
-448.9866392706
 10
430.8648937225
 20
-447.989959518
 10
427.9269913415
 20
-446.8567203552
 10
425.1521666419
 20
-445.5939047384
 10
422.5575220246
 20
-444.2093023437
  0
LWPOLYLINE
  5
D1
330
1F
100
AcDbEntity
  8
0
  6
Continuous
 62
     7
370
    25
100
AcDbPolyline
 90
       42
 70
   128
 43
0.0
 10
409.3773279481
 20
-163.7305105006
 10
409.5160503487
 20
-161.6923046626
 10
409.9313535401
 20
-159.666664192
 10
410.6206823697
 20
-157.6660799428
 10
411.5797865911
 20
-155.7028838582
 10
412.8027498406
 20
-153.78918054
 10
414.2820350761
 20
-151.9367693136
 10
416.0085221149
 20
-150.1570708556
 10
417.9715626215
 20
-148.4610559118
 10
420.1590604504
 20
-146.8591837095
 10
422.5575220246
 20
-145.3613272547
 10
425.1521666419
 20
-143.97672486
 10
427.9269913415
 20
-142.7139092432
 10
430.8648937225
 20
-141.5806700804
 10
433.9477559084
 20
-140.5839903278
 10
437.1565739511
 20
-139.7300171387
 10
440.471564515
 20
-139.0240154824
 10
443.8722883542
 20
-138.4703364008
 10
447.3377774116
 20
-138.0723953379
 10
450.8466698205
 20
-137.8326459087
 10
454.3773284424
 20
-137.7525631715
 10
457.9079870643
 20
-137.8326459087
 10
461.4168794731
 20
-138.0723953379
 10
464.8823685305
 20
-138.4703364008
 10
468.2830923698
 20
-139.0240154824
 10
471.5980829337
 20
-139.7300171387
 10
474.8069009764
 20
-140.5839903278
 10
477.8897631623
 20
-141.5806700804
 10
480.8276655433
 20
-142.7139092432
 10
483.6024902429
 20
-143.97672486
 10
486.1971348602
 20
-145.3613272547
 10
488.5955964344
 20
-146.8591837095
 10
490.7830942633
 20
-148.4610559118
 10
492.7461347698
 20
-150.1570708556
 10
494.4726218086
 20
-151.9367693136
 10
495.9519070442
 20
-153.78918054
 10
497.1748702936
 20
-155.7028838582
 10
498.1339745151
 20
-157.6660799428
 10
498.8233033446
 20
-159.666664192
 10
499.238606536
 20
-161.6923046626
 10
499.3773289366
 20
-163.7305105006
 10
499.3773289366
 20
-163.7305105006
  0
LWPOLYLINE
  5
D2
330
1F
100
AcDbEntity
  8
0
  6
Continuous
 62
     7
370
    25
100
AcDbPolyline
 90
       76
 70
   128
 43
0.0
 10
426.3759000591
 20
-442.0049996243
 10
424.1310056312
 20
-440.5956648176
 10
422.0982685605
 20
-439.0828299637
 10
420.2919432076
 20
-437.4771083536
 10
418.7247060602
 20
-435.789759567
 10
417.4075446044
 20
-434.0326222771
 10
416.3496969023
 20
-432.2180215838
 10
415.5585913362
 20
-430.3586825259
 10
415.0397662652
 20
-428.4676502447
 10
414.7968687089
 20
-426.5581873388
 10
414.8315990291
 20
-424.6436887056
 10
415.1437148816
 20
-422.7375804167
 10
415.7310246301
 20
-420.8532353197
 10
416.5894110545
 20
-419.0038696325
 10
417.7128530823
 20
-417.2024543633
 10
419.0934692527
 20
-415.4616263514
 10
420.721576986
 20
-413.7935962659
 10
422.5857577789
 20
-412.2100653485
 10
424.6729303033
 20
-410.7221375944
 10
426.9684579958
 20
-409.3402515594
 10
429.4562396903
 20
-408.0741006667
 10
432.1188260152
 20
-406.932566012
 10
434.9375384257
 20
-405.9236537306
 10
437.8926087328
 20
-405.0544418211
 10
440.9633076016
 20
-404.3310272543
 10
444.1280947
 20
-403.7584818735
 10
447.3647737852
 20
-403.3408236918
 10
450.6506395597
 20
-403.0809822964
 10
453.9626455999
 20
-402.9807794605
 10
457.2775610897
 20
-403.0409177375
 10
460.5721328226
 20
-403.2609781804
 10
463.8232537889
 20
-403.6394127384
 10
467.008115958
 20
-404.1735716291
 10
470.104384793
 20
-404.8597037184
 10
473.0903375448
 20
-405.6929998604
 10
475.945033815
 20
-406.6676122853
 10
478.6484479238
 20
-407.7767066834
 10
481.1816176582
 20
-409.012502455
 10
483.5267738411
 20
-410.3663323023
 10
485.6674668539
 20
-411.8287000626
 10
487.5886828695
 20
-413.3893478083
 10
489.2769440338
 20
-415.0373288868
 10
490.7204116921
 20
-416.7610827193
 10
491.9089561128
 20
-418.5485206711
 10
492.8342467079
 20
-420.387102466
 10
493.4897856188
 20
-422.2639346503
 10
493.8709827901
 20
-424.1658504283
 10
493.9751566288
 20
-426.0795104072
 10
493.8015814186
 20
-427.9914907965
 10
493.3514741499
 20
-429.8883807317
 10
492.627990568
 20
-431.7568757955
 10
491.6362054168
 20
-433.5838684988
 10
490.3830788533
 20
-435.3565452233
 10
488.8773965197
 20
-437.0624709999
 10
487.1297198235
 20
-438.6896790384
 10
485.1523095465
 20
-440.2267574061
 10
482.9590342243
 20
-441.6629232087
 10
480.565278033
 20
-442.9881031384
 10
477.9878322933
 20
-444.1930021897
 10
475.2447790735
 20
-445.2691708545
 10
472.3553531416
 20
-446.2090574429
 10
469.3398238389
 20
-447.0060701932
 10
466.2193429565
 20
-447.6546194711
 10
463.0158005138
 20
-448.1501554061
 10
459.751665391
 20
-448.4892021071
 10
456.4498312293
 20
-448.6693827535
 10
453.1334629903
 20
-448.6894321406
 10
449.8258178318
 20
-448.5492103661
 10
446.5500989111
 20
-448.2496990279
 10
443.3292802118
 20
-447.7930035056
 10
440.1859590302
 20
-447.1823210259
 10
437.1421781681
 20
-446.4219399026
 10
434.2192876385
 20
-445.5171931555
 10
431.4377948465
 20
-444.4744237253
 10
428.8172040695
 20
-443.3009495924
 10
426.3759000591
 20
-442.0049996243
  0
ENDSEC
  0
SECTION
  2
OBJECTS
  0
DICTIONARY
  5
C
330
0
100
AcDbDictionary
281
     1
  3
ACAD_GROUP
350
D
  3
ACAD_LAYOUT
350
1A
  3
ACAD_MLINESTYLE
350
17
  3
ACAD_PLOTSETTINGS
350
19
  3
ACAD_PLOTSTYLENAME
350
E
  3
ACAD_SCALELIST
350
47
  0
DICTIONARY
  5
D
102
{ACAD_REACTORS
330
C
102
}
330
C
100
AcDbDictionary
281
     1
  0
DICTIONARY
  5
1A
102
{ACAD_REACTORS
330
C
102
}
330
C
100
AcDbDictionary
281
     1
  3
Layout1
350
1E
  3
Layout2
350
26
  3
Model
350
22
  0
DICTIONARY
  5
17
102
{ACAD_REACTORS
330
C
102
}
330
C
100
AcDbDictionary
281
     1
  3
Standard
350
18
  0
DICTIONARY
  5
19
102
{ACAD_REACTORS
330
C
102
}
330
C
100
AcDbDictionary
281
     1
  0
ACDBDICTIONARYWDFLT
  5
E
102
{ACAD_REACTORS
330
C
102
}
330
C
100
AcDbDictionary
281
     1
  3
Normal
350
F
100
AcDbDictionaryWithDefault
340
F
  0
DICTIONARY
  5
47
102
{ACAD_REACTORS
330
C
102
}
330
C
100
AcDbDictionary
281
     1
  3
A0
350
48
  3
A1
350
49
  3
A2
350
4A
  3
A3
350
4B
  3
A4
350
4C
  3
A5
350
4D
  3
A6
350
4E
  3
A7
350
4F
  3
A8
350
50
  3
A9
350
51
  3
B0
350
52
  3
B1
350
53
  3
B2
350
54
  3
B3
350
55
  3
B4
350
56
  3
B5
350
57
  3
B6
350
58
  3
B7
350
59
  3
B8
350
5A
  3
B9
350
5B
  3
C0
350
5C
  3
C1
350
5D
  3
C2
350
5E
  3
C3
350
5F
  3
C4
350
60
  3
C5
350
61
  3
C6
350
62
  3
C7
350
63
  3
C8
350
64
  3
C9
350
65
  3
D0
350
66
  3
D1
350
67
  3
D2
350
68
  0
LAYOUT
  5
1E
102
{ACAD_REACTORS
330
1A
102
}
330
1A
100
AcDbPlotSettings
  1

  2
none_device
  4

  6

 40
0.0
 41
0.0
 42
0.0
 43
0.0
 44
0.0
 45
0.0
 46
0.0
 47
0.0
 48
0.0
 49
0.0
140
0.0
141
0.0
142
1.0
143
1.0
 70
   688
 72
     1
 73
     0
 74
     5
  7

 75
    16
147
1.0
148
0.0
149
0.0
100
AcDbLayout
  1
Layout1
 70
     1
 71
     1
 10
0.0
 20
0.0
 11
420.0
 21
297.0
 12
0.0
 22
0.0
 32
0.0
 14
1.0000000000E+20
 24
1.0000000000E+20
 34
1.0000000000E+20
 15
-1.0000000000E+20
 25
-1.0000000000E+20
 35
-1.0000000000E+20
146
0.0
 13
0.0
 23
0.0
 33
0.0
 16
1.0
 26
0.0
 36
0.0
 17
0.0
 27
1.0
 37
0.0
 76
     0
330
1B
  0
LAYOUT
  5
26
102
{ACAD_REACTORS
330
1A
102
}
330
1A
100
AcDbPlotSettings
  1

  2
none_device
  4

  6

 40
0.0
 41
0.0
 42
0.0
 43
0.0
 44
0.0
 45
0.0
 46
0.0
 47
0.0
 48
0.0
 49
0.0
140
0.0
141
0.0
142
1.0
143
1.0
 70
   688
 72
     1
 73
     0
 74
     5
  7

 75
    16
147
1.0
148
0.0
149
0.0
100
AcDbLayout
  1
Layout2
 70
     1
 71
     2
 10
0.0
 20
0.0
 11
0.0
 21
0.0
 12
0.0
 22
0.0
 32
0.0
 14
0.0
 24
0.0
 34
0.0
 15
0.0
 25
0.0
 35
0.0
146
0.0
 13
0.0
 23
0.0
 33
0.0
 16
1.0
 26
0.0
 36
0.0
 17
0.0
 27
1.0
 37
0.0
 76
     0
330
23
  0
LAYOUT
  5
22
102
{ACAD_REACTORS
330
1A
102
}
330
1A
100
AcDbPlotSettings
  1

  2
none_device
  4
Letter_(8.50_x_11.00_Inches)
  6

 40
6.35
 41
6.35
 42
6.35000508
 43
6.35000508
 44
215.9
 45
279.4
 46
0.0
 47
0.0
 48
0.0
 49
0.0
140
0.0
141
0.0
142
1.0
143
1.0
 70
  1712
 72
     1
 73
     0
 74
     0
  7

 75
     0
147
1.0
148
0.0
149
0.0
100
AcDbLayout
  1
Model
 70
     1
 71
     0
 10
0.0
 20
0.0
 11
279.4
 21
215.9
 12
0.0
 22
0.0
 32
0.0
 14
0.0
 24
0.0
 34
0.0
 15
279.4
 25
215.9
 35
0.0
146
0.0
 13
0.0
 23
0.0
 33
0.0
 16
1.0
 26
0.0
 36
0.0
 17
0.0
 27
1.0
 37
0.0
 76
     0
330
1F
331
29
  0
MLINESTYLE
  5
18
102
{ACAD_REACTORS
330
17
102
}
330
17
100
AcDbMlineStyle
  2
Standard
 70
     0
  3

 62
   256
 51
90.0
 52
90.0
 71
     2
 49
0.5
 62
   256
  6
BYLAYER
 49
-0.5
 62
   256
  6
BYLAYER
  0
ACDBPLACEHOLDER
  5
F
102
{ACAD_REACTORS
330
E
102
}
330
E
  0
SCALE
  5
48
102
{ACAD_REACTORS
330
47
102
}
330
47
100
AcDbScale
 70
     0
300
1:1
140
1.0
141
1.0
290
     1
  0
SCALE
  5
49
102
{ACAD_REACTORS
330
47
102
}
330
47
100
AcDbScale
 70
     0
300
1:2
140
1.0
141
2.0
290
     0
  0
SCALE
  5
4A
102
{ACAD_REACTORS
330
47
102
}
330
47
100
AcDbScale
 70
     0
300
1:4
140
1.0
141
4.0
290
     0
  0
SCALE
  5
4B
102
{ACAD_REACTORS
330
47
102
}
330
47
100
AcDbScale
 70
     0
300
1:5
140
1.0
141
5.0
290
     0
  0
SCALE
  5
4C
102
{ACAD_REACTORS
330
47
102
}
330
47
100
AcDbScale
 70
     0
300
1:8
140
1.0
141
8.0
290
     0
  0
SCALE
  5
4D
102
{ACAD_REACTORS
330
47
102
}
330
47
100
AcDbScale
 70
     0
300
1:10
140
1.0
141
10.0
290
     0
  0
SCALE
  5
4E
102
{ACAD_REACTORS
330
47
102
}
330
47
100
AcDbScale
 70
     0
300
1:16
140
1.0
141
16.0
290
     0
  0
SCALE
  5
4F
102
{ACAD_REACTORS
330
47
102
}
330
47
100
AcDbScale
 70
     0
300
1:20
140
1.0
141
20.0
290
     0
  0
SCALE
  5
50
102
{ACAD_REACTORS
330
47
102
}
330
47
100
AcDbScale
 70
     0
300
1:30
140
1.0
141
30.0
290
     0
  0
SCALE
  5
51
102
{ACAD_REACTORS
330
47
102
}
330
47
100
AcDbScale
 70
     0
300
1:40
140
1.0
141
40.0
290
     0
  0
SCALE
  5
52
102
{ACAD_REACTORS
330
47
102
}
330
47
100
AcDbScale
 70
     0
300
1:50
140
1.0
141
50.0
290
     0
  0
SCALE
  5
53
102
{ACAD_REACTORS
330
47
102
}
330
47
100
AcDbScale
 70
     0
300
1:100
140
1.0
141
100.0
290
     0
  0
SCALE
  5
54
102
{ACAD_REACTORS
330
47
102
}
330
47
100
AcDbScale
 70
     0
300
2:1
140
2.0
141
1.0
290
     0
  0
SCALE
  5
55
102
{ACAD_REACTORS
330
47
102
}
330
47
100
AcDbScale
 70
     0
300
4:1
140
4.0
141
1.0
290
     0
  0
SCALE
  5
56
102
{ACAD_REACTORS
330
47
102
}
330
47
100
AcDbScale
 70
     0
300
8:1
140
8.0
141
1.0
290
     0
  0
SCALE
  5
57
102
{ACAD_REACTORS
330
47
102
}
330
47
100
AcDbScale
 70
     0
300
10:1
140
10.0
141
1.0
290
     0
  0
SCALE
  5
58
102
{ACAD_REACTORS
330
47
102
}
330
47
100
AcDbScale
 70
     0
300
100:1
140
100.0
141
1.0
290
     0
  0
SCALE
  5
59
102
{ACAD_REACTORS
330
47
102
}
330
47
100
AcDbScale
 70
     0
300
1/128" = 1'-0"
140
0.0078125
141
12.0
290
     0
  0
SCALE
  5
5A
102
{ACAD_REACTORS
330
47
102
}
330
47
100
AcDbScale
 70
     0
300
1/64" = 1'-0"
140
0.015625
141
12.0
290
     0
  0
SCALE
  5
5B
102
{ACAD_REACTORS
330
47
102
}
330
47
100
AcDbScale
 70
     0
300
1/32" = 1'-0"
140
0.03125
141
12.0
290
     0
  0
SCALE
  5
5C
102
{ACAD_REACTORS
330
47
102
}
330
47
100
AcDbScale
 70
     0
300
1/16" = 1'-0"
140
0.0625
141
12.0
290
     0
  0
SCALE
  5
5D
102
{ACAD_REACTORS
330
47
102
}
330
47
100
AcDbScale
 70
     0
300
3/32" = 1'-0"
140
0.09375
141
12.0
290
     0
  0
SCALE
  5
5E
102
{ACAD_REACTORS
330
47
102
}
330
47
100
AcDbScale
 70
     0
300
1/8" = 1'-0"
140
0.125
141
12.0
290
     0
  0
SCALE
  5
5F
102
{ACAD_REACTORS
330
47
102
}
330
47
100
AcDbScale
 70
     0
300
3/16" = 1'-0"
140
0.1875
141
12.0
290
     0
  0
SCALE
  5
60
102
{ACAD_REACTORS
330
47
102
}
330
47
100
AcDbScale
 70
     0
300
1/4" = 1'-0"
140
0.25
141
12.0
290
     0
  0
SCALE
  5
61
102
{ACAD_REACTORS
330
47
102
}
330
47
100
AcDbScale
 70
     0
300
3/8" = 1'-0"
140
0.375
141
12.0
290
     0
  0
SCALE
  5
62
102
{ACAD_REACTORS
330
47
102
}
330
47
100
AcDbScale
 70
     0
300
1/2" = 1'-0"
140
0.5
141
12.0
290
     0
  0
SCALE
  5
63
102
{ACAD_REACTORS
330
47
102
}
330
47
100
AcDbScale
 70
     0
300
3/4" = 1'-0"
140
0.75
141
12.0
290
     0
  0
SCALE
  5
64
102
{ACAD_REACTORS
330
47
102
}
330
47
100
AcDbScale
 70
     0
300
1" = 1'-0"
140
1.0
141
12.0
290
     0
  0
SCALE
  5
65
102
{ACAD_REACTORS
330
47
102
}
330
47
100
AcDbScale
 70
     0
300
1-1/2" = 1'-0"
140
1.5
141
12.0
290
     0
  0
SCALE
  5
66
102
{ACAD_REACTORS
330
47
102
}
330
47
100
AcDbScale
 70
     0
300
3" = 1'-0"
140
3.0
141
12.0
290
     0
  0
SCALE
  5
67
102
{ACAD_REACTORS
330
47
102
}
330
47
100
AcDbScale
 70
     0
300
6" = 1'-0"
140
6.0
141
12.0
290
     0
  0
SCALE
  5
68
102
{ACAD_REACTORS
330
47
102
}
330
47
100
AcDbScale
 70
     0
300
1'-0" = 1'-0"
140
12.0
141
12.0
290
     0
  0
ENDSEC
  0
EOF
